  0
SECTION
  2
HEADER
  9
$ACADVER
  1
AC1009
  9
$ANGDIR
  70
0
  9
$CECOLOR
  62
256
  9
$CELTYPE
  6
BYLAYER
  9
$EXTMIN
  10
0.0
  20
0.0
  9
$EXTMAX
  10
80.0
  20
48.0
  9
$FILLMODE
  70
1
  9
$MIRRTEXT
  70
0
  0
ENDSEC
  0
SECTION
  2
TABLES
  0
TABLE
  2
LAYER
  70
27
  0
LAYER
  2
Drill_Top
  70
64
  62
13
  6
CONTINUOUS
  0
LAYER
  2
Drill_Bottom
  70
64
  62
16
  6
CONTINUOUS
  0
LAYER
  2
Board_Outline
  70
64
  62
25
  6
CONTINUOUS
  0
ENDTAB
  0
ENDSEC
  0
SECTION
  2
ENTITIES
  0
CIRCLE
  8
Drill_Top
  10
73.175
  20
36.85
  39
0.0
  40
1.0
  0
CIRCLE
  8
Drill_Bottom
  10
73.175
  20
36.85
  39
0.0
  40
1.0
  0
POLYLINE
  8
Board_Outline
  6
CONTINUOUS
  66
1
  70
0
  40
0.14
  41
0.14
  0
VERTEX
  8
Board_Outline
  10
48.2494
  20
35.8
  42
0
  0
VERTEX
  8
Board_Outline
  10
48.4058
  20
35.8123
  42
0
  0
VERTEX
  8
Board_Outline
  10
48.5584
  20
35.849
  42
0
  0
VERTEX
  8
Board_Outline
  10
48.7033
  20
35.909
  42
0
  0
VERTEX
  8
Board_Outline
  10
48.8371
  20
35.991
  42
0
  0
VERTEX
  8
Board_Outline
  10
48.9563
  20
36.0929
  42
0
  0
VERTEX
  8
Board_Outline
  10
49.0582
  20
36.2122
  42
0
  0
VERTEX
  8
Board_Outline
  10
49.1402
  20
36.346
  42
0
  0
VERTEX
  8
Board_Outline
  10
49.2002
  20
36.4909
  42
0
  0
VERTEX
  8
Board_Outline
  10
49.2368
  20
36.6435
  42
0
  0
VERTEX
  8
Board_Outline
  10
49.2491
  20
36.7999
  42
0
  0
VERTEX
  8
Board_Outline
  10
49.2368
  20
36.9563
  42
0
  0
VERTEX
  8
Board_Outline
  10
49.2002
  20
37.1088
  42
0
  0
VERTEX
  8
Board_Outline
  10
49.1402
  20
37.2538
  42
0
  0
VERTEX
  8
Board_Outline
  10
49.0582
  20
37.3875
  42
0
  0
VERTEX
  8
Board_Outline
  10
48.9563
  20
37.5069
  42
0
  0
VERTEX
  8
Board_Outline
  10
48.8371
  20
37.6088
  42
0
  0
VERTEX
  8
Board_Outline
  10
48.7033
  20
37.6907
  42
0
  0
VERTEX
  8
Board_Outline
  10
48.5584
  20
37.7508
  42
0
  0
VERTEX
  8
Board_Outline
  10
48.4058
  20
37.7875
  42
0
  0
VERTEX
  8
Board_Outline
  10
48.2494
  20
37.7998
  42
0
  0
SEQEND
  0
POLYLINE
  8
Board_Outline
  6
CONTINUOUS
  66
1
  70
0
  40
0.14
  41
0.14
  0
VERTEX
  8
Board_Outline
  10
47.2497
  20
37.7998
  42
0
  0
VERTEX
  8
Board_Outline
  10
47.0933
  20
37.7875
  42
0
  0
VERTEX
  8
Board_Outline
  10
46.9408
  20
37.7508
  42
0
  0
VERTEX
  8
Board_Outline
  10
46.7958
  20
37.6907
  42
0
  0
VERTEX
  8
Board_Outline
  10
46.6621
  20
37.6088
  42
0
  0
VERTEX
  8
Board_Outline
  10
46.5428
  20
37.5069
  42
0
  0
VERTEX
  8
Board_Outline
  10
46.4409
  20
37.3875
  42
0
  0
VERTEX
  8
Board_Outline
  10
46.359
  20
37.2538
  42
0
  0
VERTEX
  8
Board_Outline
  10
46.2989
  20
37.1088
  42
0
  0
VERTEX
  8
Board_Outline
  10
46.2623
  20
36.9563
  42
0
  0
VERTEX
  8
Board_Outline
  10
46.25
  20
36.7999
  42
0
  0
VERTEX
  8
Board_Outline
  10
46.2623
  20
36.6435
  42
0
  0
VERTEX
  8
Board_Outline
  10
46.2989
  20
36.4909
  42
0
  0
VERTEX
  8
Board_Outline
  10
46.359
  20
36.346
  42
0
  0
VERTEX
  8
Board_Outline
  10
46.4409
  20
36.2122
  42
0
  0
VERTEX
  8
Board_Outline
  10
46.5428
  20
36.0929
  42
0
  0
VERTEX
  8
Board_Outline
  10
46.6621
  20
35.991
  42
0
  0
VERTEX
  8
Board_Outline
  10
46.7958
  20
35.909
  42
0
  0
VERTEX
  8
Board_Outline
  10
46.9408
  20
35.849
  42
0
  0
VERTEX
  8
Board_Outline
  10
47.0933
  20
35.8123
  42
0
  0
VERTEX
  8
Board_Outline
  10
47.2497
  20
35.8
  42
0
  0
SEQEND
  0
POLYLINE
  8
Board_Outline
  6
CONTINUOUS
  66
1
  70
0
  40
0.14
  41
0.14
  0
VERTEX
  8
Board_Outline
  10
47.2497
  20
37.7998
  42
0
  0
VERTEX
  8
Board_Outline
  10
48.2494
  20
37.7998
  42
0
  0
SEQEND
  0
POLYLINE
  8
Board_Outline
  6
CONTINUOUS
  66
1
  70
0
  40
0.14
  41
0.14
  0
VERTEX
  8
Board_Outline
  10
48.2494
  20
35.8
  42
0
  0
VERTEX
  8
Board_Outline
  10
47.2497
  20
35.8
  42
0
  0
SEQEND
  0
POLYLINE
  8
Board_Outline
  6
CONTINUOUS
  66
1
  70
0
  40
0.14
  41
0.14
  0
VERTEX
  8
Board_Outline
  10
8.6
  20
31.35
  42
0
  0
VERTEX
  8
Board_Outline
  10
8.6107
  20
31.5132
  42
0
  0
VERTEX
  8
Board_Outline
  10
8.6426
  20
31.6735
  42
0
  0
VERTEX
  8
Board_Outline
  10
8.6952
  20
31.8284
  42
0
  0
VERTEX
  8
Board_Outline
  10
8.7675
  20
31.975
  42
0
  0
VERTEX
  8
Board_Outline
  10
8.8583
  20
32.111
  42
0
  0
VERTEX
  8
Board_Outline
  10
8.9661
  20
32.2339
  42
0
  0
VERTEX
  8
Board_Outline
  10
9.089
  20
32.3417
  42
0
  0
VERTEX
  8
Board_Outline
  10
9.225
  20
32.4325
  42
0
  0
VERTEX
  8
Board_Outline
  10
9.3716
  20
32.5048
  42
0
  0
VERTEX
  8
Board_Outline
  10
9.5265
  20
32.5574
  42
0
  0
VERTEX
  8
Board_Outline
  10
9.6868
  20
32.5893
  42
0
  0
VERTEX
  8
Board_Outline
  10
9.85
  20
32.6
  42
0
  0
VERTEX
  8
Board_Outline
  10
10.0132
  20
32.5893
  42
0
  0
VERTEX
  8
Board_Outline
  10
10.1735
  20
32.5574
  42
0
  0
VERTEX
  8
Board_Outline
  10
10.3284
  20
32.5048
  42
0
  0
VERTEX
  8
Board_Outline
  10
10.475
  20
32.4325
  42
0
  0
VERTEX
  8
Board_Outline
  10
10.611
  20
32.3417
  42
0
  0
VERTEX
  8
Board_Outline
  10
10.7339
  20
32.2339
  42
0
  0
VERTEX
  8
Board_Outline
  10
10.8417
  20
32.111
  42
0
  0
VERTEX
  8
Board_Outline
  10
10.9325
  20
31.975
  42
0
  0
VERTEX
  8
Board_Outline
  10
11.0048
  20
31.8284
  42
0
  0
VERTEX
  8
Board_Outline
  10
11.0574
  20
31.6735
  42
0
  0
VERTEX
  8
Board_Outline
  10
11.0893
  20
31.5132
  42
0
  0
VERTEX
  8
Board_Outline
  10
11.1
  20
31.35
  42
0
  0
VERTEX
  8
Board_Outline
  10
11.1
  20
31.35
  42
0
  0
VERTEX
  8
Board_Outline
  10
11.0893
  20
31.1868
  42
0
  0
VERTEX
  8
Board_Outline
  10
11.0574
  20
31.0265
  42
0
  0
VERTEX
  8
Board_Outline
  10
11.0048
  20
30.8716
  42
0
  0
VERTEX
  8
Board_Outline
  10
10.9325
  20
30.725
  42
0
  0
VERTEX
  8
Board_Outline
  10
10.8417
  20
30.589
  42
0
  0
VERTEX
  8
Board_Outline
  10
10.7339
  20
30.4661
  42
0
  0
VERTEX
  8
Board_Outline
  10
10.611
  20
30.3583
  42
0
  0
VERTEX
  8
Board_Outline
  10
10.475
  20
30.2675
  42
0
  0
VERTEX
  8
Board_Outline
  10
10.3284
  20
30.1952
  42
0
  0
VERTEX
  8
Board_Outline
  10
10.1735
  20
30.1426
  42
0
  0
VERTEX
  8
Board_Outline
  10
10.0132
  20
30.1107
  42
0
  0
VERTEX
  8
Board_Outline
  10
9.85
  20
30.1
  42
0
  0
VERTEX
  8
Board_Outline
  10
9.6868
  20
30.1107
  42
0
  0
VERTEX
  8
Board_Outline
  10
9.5265
  20
30.1426
  42
0
  0
VERTEX
  8
Board_Outline
  10
9.3716
  20
30.1952
  42
0
  0
VERTEX
  8
Board_Outline
  10
9.225
  20
30.2675
  42
0
  0
VERTEX
  8
Board_Outline
  10
9.089
  20
30.3583
  42
0
  0
VERTEX
  8
Board_Outline
  10
8.9661
  20
30.4661
  42
0
  0
VERTEX
  8
Board_Outline
  10
8.8583
  20
30.589
  42
0
  0
VERTEX
  8
Board_Outline
  10
8.7675
  20
30.725
  42
0
  0
VERTEX
  8
Board_Outline
  10
8.6952
  20
30.8716
  42
0
  0
VERTEX
  8
Board_Outline
  10
8.6426
  20
31.0265
  42
0
  0
VERTEX
  8
Board_Outline
  10
8.6107
  20
31.1868
  42
0
  0
VERTEX
  8
Board_Outline
  10
8.6
  20
31.35
  42
0
  0
VERTEX
  8
Board_Outline
  10
8.6
  20
31.35
  42
0
  0
SEQEND
  0
POLYLINE
  8
Board_Outline
  6
CONTINUOUS
  66
1
  70
0
  40
0.14
  41
0.14
  0
VERTEX
  8
Board_Outline
  10
54.5
  20
22.0
  42
0
  0
VERTEX
  8
Board_Outline
  10
54.4771
  20
21.7713
  42
0
  0
VERTEX
  8
Board_Outline
  10
54.4092
  20
21.5526
  42
0
  0
VERTEX
  8
Board_Outline
  10
54.2995
  20
21.3534
  42
0
  0
VERTEX
  8
Board_Outline
  10
54.1526
  20
21.1825
  42
0
  0
VERTEX
  8
Board_Outline
  10
53.975
  20
21.0474
  42
0
  0
VERTEX
  8
Board_Outline
  10
53.7745
  20
20.9538
  42
0
  0
VERTEX
  8
Board_Outline
  10
53.5598
  20
20.906
  42
0
  0
VERTEX
  8
Board_Outline
  10
53.3402
  20
20.906
  42
0
  0
VERTEX
  8
Board_Outline
  10
53.1255
  20
20.9538
  42
0
  0
VERTEX
  8
Board_Outline
  10
52.925
  20
21.0474
  42
0
  0
VERTEX
  8
Board_Outline
  10
52.7474
  20
21.1825
  42
0
  0
VERTEX
  8
Board_Outline
  10
52.6005
  20
21.3534
  42
0
  0
VERTEX
  8
Board_Outline
  10
52.4908
  20
21.5526
  42
0
  0
VERTEX
  8
Board_Outline
  10
52.4229
  20
21.7713
  42
0
  0
VERTEX
  8
Board_Outline
  10
52.4
  20
22.0
  42
0
  0
VERTEX
  8
Board_Outline
  10
52.4229
  20
22.2287
  42
0
  0
VERTEX
  8
Board_Outline
  10
52.4908
  20
22.4474
  42
0
  0
VERTEX
  8
Board_Outline
  10
52.6005
  20
22.6466
  42
0
  0
VERTEX
  8
Board_Outline
  10
52.7474
  20
22.8175
  42
0
  0
VERTEX
  8
Board_Outline
  10
52.925
  20
22.9526
  42
0
  0
VERTEX
  8
Board_Outline
  10
53.1255
  20
23.0462
  42
0
  0
VERTEX
  8
Board_Outline
  10
53.3402
  20
23.094
  42
0
  0
VERTEX
  8
Board_Outline
  10
53.5598
  20
23.094
  42
0
  0
VERTEX
  8
Board_Outline
  10
53.7745
  20
23.0462
  42
0
  0
VERTEX
  8
Board_Outline
  10
53.975
  20
22.9526
  42
0
  0
VERTEX
  8
Board_Outline
  10
54.1526
  20
22.8175
  42
0
  0
VERTEX
  8
Board_Outline
  10
54.2995
  20
22.6466
  42
0
  0
VERTEX
  8
Board_Outline
  10
54.4092
  20
22.4474
  42
0
  0
VERTEX
  8
Board_Outline
  10
54.4771
  20
22.2287
  42
0
  0
VERTEX
  8
Board_Outline
  10
54.5
  20
22.0
  42
0
  0
SEQEND
  0
POLYLINE
  8
Board_Outline
  6
CONTINUOUS
  66
1
  70
0
  40
0.14
  41
0.14
  0
VERTEX
  8
Board_Outline
  10
78.8
  20
21.95
  42
0
  0
VERTEX
  8
Board_Outline
  10
78.7716
  20
21.6693
  42
0
  0
VERTEX
  8
Board_Outline
  10
78.6876
  20
21.4009
  42
0
  0
VERTEX
  8
Board_Outline
  10
78.5517
  20
21.1565
  42
0
  0
VERTEX
  8
Board_Outline
  10
78.3699
  20
20.9468
  42
0
  0
VERTEX
  8
Board_Outline
  10
78.15
  20
20.7809
  42
0
  0
VERTEX
  8
Board_Outline
  10
77.9017
  20
20.6661
  42
0
  0
VERTEX
  8
Board_Outline
  10
77.6359
  20
20.6074
  42
0
  0
VERTEX
  8
Board_Outline
  10
77.3641
  20
20.6074
  42
0
  0
VERTEX
  8
Board_Outline
  10
77.0983
  20
20.6661
  42
0
  0
VERTEX
  8
Board_Outline
  10
76.85
  20
20.7809
  42
0
  0
VERTEX
  8
Board_Outline
  10
76.6301
  20
20.9468
  42
0
  0
VERTEX
  8
Board_Outline
  10
76.4483
  20
21.1565
  42
0
  0
VERTEX
  8
Board_Outline
  10
76.3124
  20
21.4009
  42
0
  0
VERTEX
  8
Board_Outline
  10
76.2284
  20
21.6693
  42
0
  0
VERTEX
  8
Board_Outline
  10
76.2
  20
21.95
  42
0
  0
VERTEX
  8
Board_Outline
  10
76.2284
  20
22.2307
  42
0
  0
VERTEX
  8
Board_Outline
  10
76.3124
  20
22.4991
  42
0
  0
VERTEX
  8
Board_Outline
  10
76.4483
  20
22.7435
  42
0
  0
VERTEX
  8
Board_Outline
  10
76.6301
  20
22.9532
  42
0
  0
VERTEX
  8
Board_Outline
  10
76.85
  20
23.1191
  42
0
  0
VERTEX
  8
Board_Outline
  10
77.0983
  20
23.2339
  42
0
  0
VERTEX
  8
Board_Outline
  10
77.3641
  20
23.2926
  42
0
  0
VERTEX
  8
Board_Outline
  10
77.6359
  20
23.2926
  42
0
  0
VERTEX
  8
Board_Outline
  10
77.9017
  20
23.2339
  42
0
  0
VERTEX
  8
Board_Outline
  10
78.15
  20
23.1191
  42
0
  0
VERTEX
  8
Board_Outline
  10
78.3699
  20
22.9532
  42
0
  0
VERTEX
  8
Board_Outline
  10
78.5517
  20
22.7435
  42
0
  0
VERTEX
  8
Board_Outline
  10
78.6876
  20
22.4991
  42
0
  0
VERTEX
  8
Board_Outline
  10
78.7716
  20
22.2307
  42
0
  0
VERTEX
  8
Board_Outline
  10
78.8
  20
21.95
  42
0
  0
SEQEND
  0
POLYLINE
  8
Board_Outline
  6
CONTINUOUS
  66
1
  70
0
  40
0.14
  41
0.14
  0
VERTEX
  8
Board_Outline
  10
69.6
  20
31.2
  42
0
  0
VERTEX
  8
Board_Outline
  10
69.6111
  20
31.3697
  42
0
  0
VERTEX
  8
Board_Outline
  10
69.6443
  20
31.5365
  42
0
  0
VERTEX
  8
Board_Outline
  10
69.699
  20
31.6975
  42
0
  0
VERTEX
  8
Board_Outline
  10
69.7742
  20
31.85
  42
0
  0
VERTEX
  8
Board_Outline
  10
69.8686
  20
31.9914
  42
0
  0
VERTEX
  8
Board_Outline
  10
69.9808
  20
32.1192
  42
0
  0
VERTEX
  8
Board_Outline
  10
70.1086
  20
32.2314
  42
0
  0
VERTEX
  8
Board_Outline
  10
70.25
  20
32.3258
  42
0
  0
VERTEX
  8
Board_Outline
  10
70.4025
  20
32.401
  42
0
  0
VERTEX
  8
Board_Outline
  10
70.5635
  20
32.4557
  42
0
  0
VERTEX
  8
Board_Outline
  10
70.7303
  20
32.4889
  42
0
  0
VERTEX
  8
Board_Outline
  10
70.9
  20
32.5
  42
0
  0
VERTEX
  8
Board_Outline
  10
71.0697
  20
32.4889
  42
0
  0
VERTEX
  8
Board_Outline
  10
71.2365
  20
32.4557
  42
0
  0
VERTEX
  8
Board_Outline
  10
71.3975
  20
32.401
  42
0
  0
VERTEX
  8
Board_Outline
  10
71.55
  20
32.3258
  42
0
  0
VERTEX
  8
Board_Outline
  10
71.6914
  20
32.2314
  42
0
  0
VERTEX
  8
Board_Outline
  10
71.8192
  20
32.1192
  42
0
  0
VERTEX
  8
Board_Outline
  10
71.9314
  20
31.9914
  42
0
  0
VERTEX
  8
Board_Outline
  10
72.0258
  20
31.85
  42
0
  0
VERTEX
  8
Board_Outline
  10
72.101
  20
31.6975
  42
0
  0
VERTEX
  8
Board_Outline
  10
72.1557
  20
31.5365
  42
0
  0
VERTEX
  8
Board_Outline
  10
72.1889
  20
31.3697
  42
0
  0
VERTEX
  8
Board_Outline
  10
72.2
  20
31.2
  42
0
  0
VERTEX
  8
Board_Outline
  10
72.2
  20
31.2
  42
0
  0
VERTEX
  8
Board_Outline
  10
72.1889
  20
31.0303
  42
0
  0
VERTEX
  8
Board_Outline
  10
72.1557
  20
30.8635
  42
0
  0
VERTEX
  8
Board_Outline
  10
72.101
  20
30.7025
  42
0
  0
VERTEX
  8
Board_Outline
  10
72.0258
  20
30.55
  42
0
  0
VERTEX
  8
Board_Outline
  10
71.9314
  20
30.4086
  42
0
  0
VERTEX
  8
Board_Outline
  10
71.8192
  20
30.2808
  42
0
  0
VERTEX
  8
Board_Outline
  10
71.6914
  20
30.1686
  42
0
  0
VERTEX
  8
Board_Outline
  10
71.55
  20
30.0742
  42
0
  0
VERTEX
  8
Board_Outline
  10
71.3975
  20
29.999
  42
0
  0
VERTEX
  8
Board_Outline
  10
71.2365
  20
29.9443
  42
0
  0
VERTEX
  8
Board_Outline
  10
71.0697
  20
29.9111
  42
0
  0
VERTEX
  8
Board_Outline
  10
70.9
  20
29.9
  42
0
  0
VERTEX
  8
Board_Outline
  10
70.7303
  20
29.9111
  42
0
  0
VERTEX
  8
Board_Outline
  10
70.5635
  20
29.9443
  42
0
  0
VERTEX
  8
Board_Outline
  10
70.4025
  20
29.999
  42
0
  0
VERTEX
  8
Board_Outline
  10
70.25
  20
30.0742
  42
0
  0
VERTEX
  8
Board_Outline
  10
70.1086
  20
30.1686
  42
0
  0
VERTEX
  8
Board_Outline
  10
69.9808
  20
30.2808
  42
0
  0
VERTEX
  8
Board_Outline
  10
69.8686
  20
30.4086
  42
0
  0
VERTEX
  8
Board_Outline
  10
69.7742
  20
30.55
  42
0
  0
VERTEX
  8
Board_Outline
  10
69.699
  20
30.7025
  42
0
  0
VERTEX
  8
Board_Outline
  10
69.6443
  20
30.8635
  42
0
  0
VERTEX
  8
Board_Outline
  10
69.6111
  20
31.0303
  42
0
  0
VERTEX
  8
Board_Outline
  10
69.6
  20
31.2
  42
0
  0
VERTEX
  8
Board_Outline
  10
69.6
  20
31.2
  42
0
  0
SEQEND
  0
POLYLINE
  8
Board_Outline
  6
CONTINUOUS
  66
1
  70
0
  40
0.14
  41
0.14
  0
VERTEX
  8
Board_Outline
  10
3.8
  20
20.8
  42
0
  0
VERTEX
  8
Board_Outline
  10
3.9691
  20
20.8365
  42
0
  0
VERTEX
  8
Board_Outline
  10
4.1318
  20
20.8953
  42
0
  0
VERTEX
  8
Board_Outline
  10
4.2851
  20
20.9755
  42
0
  0
VERTEX
  8
Board_Outline
  10
4.4263
  20
21.0754
  42
0
  0
VERTEX
  8
Board_Outline
  10
4.5527
  20
21.1935
  42
0
  0
VERTEX
  8
Board_Outline
  10
4.6622
  20
21.3274
  42
0
  0
VERTEX
  8
Board_Outline
  10
4.7528
  20
21.4748
  42
0
  0
VERTEX
  8
Board_Outline
  10
4.8227
  20
21.633
  42
0
  0
VERTEX
  8
Board_Outline
  10
4.8708
  20
21.7992
  42
0
  0
VERTEX
  8
Board_Outline
  10
4.8962
  20
21.9703
  42
0
  0
VERTEX
  8
Board_Outline
  10
4.8984
  20
22.1433
  42
0
  0
VERTEX
  8
Board_Outline
  10
4.8773
  20
22.315
  42
0
  0
VERTEX
  8
Board_Outline
  10
4.8334
  20
22.4823
  42
0
  0
VERTEX
  8
Board_Outline
  10
4.7674
  20
22.6422
  42
0
  0
VERTEX
  8
Board_Outline
  10
4.6806
  20
22.7919
  42
0
  0
VERTEX
  8
Board_Outline
  10
4.5745
  20
22.9285
  42
0
  0
VERTEX
  8
Board_Outline
  10
4.451
  20
23.0496
  42
0
  0
VERTEX
  8
Board_Outline
  10
4.3124
  20
23.1531
  42
0
  0
VERTEX
  8
Board_Outline
  10
4.1611
  20
23.2371
  42
0
  0
VERTEX
  8
Board_Outline
  10
4.0
  20
23.3
  42
0
  0
SEQEND
  0
POLYLINE
  8
Board_Outline
  6
CONTINUOUS
  66
1
  70
0
  40
0.14
  41
0.14
  0
VERTEX
  8
Board_Outline
  10
2.6
  20
23.3
  42
0
  0
VERTEX
  8
Board_Outline
  10
2.427
  20
23.2681
  42
0
  0
VERTEX
  8
Board_Outline
  10
2.26
  20
23.2128
  42
0
  0
VERTEX
  8
Board_Outline
  10
2.1022
  20
23.1351
  42
0
  0
VERTEX
  8
Board_Outline
  10
1.9566
  20
23.0364
  42
0
  0
VERTEX
  8
Board_Outline
  10
1.8259
  20
22.9187
  42
0
  0
VERTEX
  8
Board_Outline
  10
1.7126
  20
22.7842
  42
0
  0
VERTEX
  8
Board_Outline
  10
1.6189
  20
22.6353
  42
0
  0
VERTEX
  8
Board_Outline
  10
1.5465
  20
22.475
  42
0
  0
VERTEX
  8
Board_Outline
  10
1.4968
  20
22.3063
  42
0
  0
VERTEX
  8
Board_Outline
  10
1.4707
  20
22.1323
  42
0
  0
VERTEX
  8
Board_Outline
  10
1.4688
  20
21.9565
  42
0
  0
VERTEX
  8
Board_Outline
  10
1.4911
  20
21.782
  42
0
  0
VERTEX
  8
Board_Outline
  10
1.5371
  20
21.6122
  42
0
  0
VERTEX
  8
Board_Outline
  10
1.6059
  20
21.4503
  42
0
  0
VERTEX
  8
Board_Outline
  10
1.6964
  20
21.2995
  42
0
  0
VERTEX
  8
Board_Outline
  10
1.8067
  20
21.1625
  42
0
  0
VERTEX
  8
Board_Outline
  10
1.9348
  20
21.0419
  42
0
  0
VERTEX
  8
Board_Outline
  10
2.0782
  20
20.9401
  42
0
  0
VERTEX
  8
Board_Outline
  10
2.2343
  20
20.859
  42
0
  0
VERTEX
  8
Board_Outline
  10
2.4
  20
20.8
  42
0
  0
SEQEND
  0
POLYLINE
  8
Board_Outline
  6
CONTINUOUS
  66
1
  70
0
  40
0.14
  41
0.14
  0
VERTEX
  8
Board_Outline
  10
4.0
  20
23.3
  42
0
  0
VERTEX
  8
Board_Outline
  10
2.6
  20
23.3
  42
0
  0
SEQEND
  0
POLYLINE
  8
Board_Outline
  6
CONTINUOUS
  66
1
  70
0
  40
0.14
  41
0.14
  0
VERTEX
  8
Board_Outline
  10
2.4
  20
20.8
  42
0
  0
VERTEX
  8
Board_Outline
  10
3.8
  20
20.8
  42
0
  0
SEQEND
  0
POLYLINE
  8
Board_Outline
  6
CONTINUOUS
  66
1
  70
0
  40
0.14
  41
0.14
  0
VERTEX
  8
Board_Outline
  10
48.2494
  20
35.8
  42
0
  0
VERTEX
  8
Board_Outline
  10
48.4058
  20
35.8123
  42
0
  0
VERTEX
  8
Board_Outline
  10
48.5584
  20
35.849
  42
0
  0
VERTEX
  8
Board_Outline
  10
48.7033
  20
35.909
  42
0
  0
VERTEX
  8
Board_Outline
  10
48.8371
  20
35.991
  42
0
  0
VERTEX
  8
Board_Outline
  10
48.9563
  20
36.0929
  42
0
  0
VERTEX
  8
Board_Outline
  10
49.0582
  20
36.2122
  42
0
  0
VERTEX
  8
Board_Outline
  10
49.1402
  20
36.346
  42
0
  0
VERTEX
  8
Board_Outline
  10
49.2002
  20
36.4909
  42
0
  0
VERTEX
  8
Board_Outline
  10
49.2368
  20
36.6435
  42
0
  0
VERTEX
  8
Board_Outline
  10
49.2491
  20
36.7999
  42
0
  0
VERTEX
  8
Board_Outline
  10
49.2368
  20
36.9563
  42
0
  0
VERTEX
  8
Board_Outline
  10
49.2002
  20
37.1088
  42
0
  0
VERTEX
  8
Board_Outline
  10
49.1402
  20
37.2538
  42
0
  0
VERTEX
  8
Board_Outline
  10
49.0582
  20
37.3875
  42
0
  0
VERTEX
  8
Board_Outline
  10
48.9563
  20
37.5069
  42
0
  0
VERTEX
  8
Board_Outline
  10
48.8371
  20
37.6088
  42
0
  0
VERTEX
  8
Board_Outline
  10
48.7033
  20
37.6907
  42
0
  0
VERTEX
  8
Board_Outline
  10
48.5584
  20
37.7508
  42
0
  0
VERTEX
  8
Board_Outline
  10
48.4058
  20
37.7875
  42
0
  0
VERTEX
  8
Board_Outline
  10
48.2494
  20
37.7998
  42
0
  0
SEQEND
  0
POLYLINE
  8
Board_Outline
  6
CONTINUOUS
  66
1
  70
0
  40
0.14
  41
0.14
  0
VERTEX
  8
Board_Outline
  10
47.2497
  20
37.7998
  42
0
  0
VERTEX
  8
Board_Outline
  10
47.0933
  20
37.7875
  42
0
  0
VERTEX
  8
Board_Outline
  10
46.9408
  20
37.7508
  42
0
  0
VERTEX
  8
Board_Outline
  10
46.7958
  20
37.6907
  42
0
  0
VERTEX
  8
Board_Outline
  10
46.6621
  20
37.6088
  42
0
  0
VERTEX
  8
Board_Outline
  10
46.5428
  20
37.5069
  42
0
  0
VERTEX
  8
Board_Outline
  10
46.4409
  20
37.3875
  42
0
  0
VERTEX
  8
Board_Outline
  10
46.359
  20
37.2538
  42
0
  0
VERTEX
  8
Board_Outline
  10
46.2989
  20
37.1088
  42
0
  0
VERTEX
  8
Board_Outline
  10
46.2623
  20
36.9563
  42
0
  0
VERTEX
  8
Board_Outline
  10
46.25
  20
36.7999
  42
0
  0
VERTEX
  8
Board_Outline
  10
46.2623
  20
36.6435
  42
0
  0
VERTEX
  8
Board_Outline
  10
46.2989
  20
36.4909
  42
0
  0
VERTEX
  8
Board_Outline
  10
46.359
  20
36.346
  42
0
  0
VERTEX
  8
Board_Outline
  10
46.4409
  20
36.2122
  42
0
  0
VERTEX
  8
Board_Outline
  10
46.5428
  20
36.0929
  42
0
  0
VERTEX
  8
Board_Outline
  10
46.6621
  20
35.991
  42
0
  0
VERTEX
  8
Board_Outline
  10
46.7958
  20
35.909
  42
0
  0
VERTEX
  8
Board_Outline
  10
46.9408
  20
35.849
  42
0
  0
VERTEX
  8
Board_Outline
  10
47.0933
  20
35.8123
  42
0
  0
VERTEX
  8
Board_Outline
  10
47.2497
  20
35.8
  42
0
  0
SEQEND
  0
POLYLINE
  8
Board_Outline
  6
CONTINUOUS
  66
1
  70
0
  40
0.14
  41
0.14
  0
VERTEX
  8
Board_Outline
  10
47.2497
  20
37.7998
  42
0
  0
VERTEX
  8
Board_Outline
  10
48.2494
  20
37.7998
  42
0
  0
SEQEND
  0
POLYLINE
  8
Board_Outline
  6
CONTINUOUS
  66
1
  70
0
  40
0.14
  41
0.14
  0
VERTEX
  8
Board_Outline
  10
48.2494
  20
35.8
  42
0
  0
VERTEX
  8
Board_Outline
  10
47.2497
  20
35.8
  42
0
  0
SEQEND
  0
POLYLINE
  8
Board_Outline
  6
CONTINUOUS
  66
1
  70
0
  40
0.14
  41
0.14
  0
VERTEX
  8
Board_Outline
  10
48.2494
  20
35.8
  42
0
  0
VERTEX
  8
Board_Outline
  10
48.4058
  20
35.8123
  42
0
  0
VERTEX
  8
Board_Outline
  10
48.5584
  20
35.849
  42
0
  0
VERTEX
  8
Board_Outline
  10
48.7033
  20
35.909
  42
0
  0
VERTEX
  8
Board_Outline
  10
48.8371
  20
35.991
  42
0
  0
VERTEX
  8
Board_Outline
  10
48.9563
  20
36.0929
  42
0
  0
VERTEX
  8
Board_Outline
  10
49.0582
  20
36.2122
  42
0
  0
VERTEX
  8
Board_Outline
  10
49.1402
  20
36.346
  42
0
  0
VERTEX
  8
Board_Outline
  10
49.2002
  20
36.4909
  42
0
  0
VERTEX
  8
Board_Outline
  10
49.2368
  20
36.6435
  42
0
  0
VERTEX
  8
Board_Outline
  10
49.2491
  20
36.7999
  42
0
  0
VERTEX
  8
Board_Outline
  10
49.2368
  20
36.9563
  42
0
  0
VERTEX
  8
Board_Outline
  10
49.2002
  20
37.1088
  42
0
  0
VERTEX
  8
Board_Outline
  10
49.1402
  20
37.2538
  42
0
  0
VERTEX
  8
Board_Outline
  10
49.0582
  20
37.3875
  42
0
  0
VERTEX
  8
Board_Outline
  10
48.9563
  20
37.5069
  42
0
  0
VERTEX
  8
Board_Outline
  10
48.8371
  20
37.6088
  42
0
  0
VERTEX
  8
Board_Outline
  10
48.7033
  20
37.6907
  42
0
  0
VERTEX
  8
Board_Outline
  10
48.5584
  20
37.7508
  42
0
  0
VERTEX
  8
Board_Outline
  10
48.4058
  20
37.7875
  42
0
  0
VERTEX
  8
Board_Outline
  10
48.2494
  20
37.7998
  42
0
  0
SEQEND
  0
POLYLINE
  8
Board_Outline
  6
CONTINUOUS
  66
1
  70
0
  40
0.14
  41
0.14
  0
VERTEX
  8
Board_Outline
  10
47.2497
  20
37.7998
  42
0
  0
VERTEX
  8
Board_Outline
  10
47.0933
  20
37.7875
  42
0
  0
VERTEX
  8
Board_Outline
  10
46.9408
  20
37.7508
  42
0
  0
VERTEX
  8
Board_Outline
  10
46.7958
  20
37.6907
  42
0
  0
VERTEX
  8
Board_Outline
  10
46.6621
  20
37.6088
  42
0
  0
VERTEX
  8
Board_Outline
  10
46.5428
  20
37.5069
  42
0
  0
VERTEX
  8
Board_Outline
  10
46.4409
  20
37.3875
  42
0
  0
VERTEX
  8
Board_Outline
  10
46.359
  20
37.2538
  42
0
  0
VERTEX
  8
Board_Outline
  10
46.2989
  20
37.1088
  42
0
  0
VERTEX
  8
Board_Outline
  10
46.2623
  20
36.9563
  42
0
  0
VERTEX
  8
Board_Outline
  10
46.25
  20
36.7999
  42
0
  0
VERTEX
  8
Board_Outline
  10
46.2623
  20
36.6435
  42
0
  0
VERTEX
  8
Board_Outline
  10
46.2989
  20
36.4909
  42
0
  0
VERTEX
  8
Board_Outline
  10
46.359
  20
36.346
  42
0
  0
VERTEX
  8
Board_Outline
  10
46.4409
  20
36.2122
  42
0
  0
VERTEX
  8
Board_Outline
  10
46.5428
  20
36.0929
  42
0
  0
VERTEX
  8
Board_Outline
  10
46.6621
  20
35.991
  42
0
  0
VERTEX
  8
Board_Outline
  10
46.7958
  20
35.909
  42
0
  0
VERTEX
  8
Board_Outline
  10
46.9408
  20
35.849
  42
0
  0
VERTEX
  8
Board_Outline
  10
47.0933
  20
35.8123
  42
0
  0
VERTEX
  8
Board_Outline
  10
47.2497
  20
35.8
  42
0
  0
SEQEND
  0
POLYLINE
  8
Board_Outline
  6
CONTINUOUS
  66
1
  70
0
  40
0.14
  41
0.14
  0
VERTEX
  8
Board_Outline
  10
47.2497
  20
37.7998
  42
0
  0
VERTEX
  8
Board_Outline
  10
48.2494
  20
37.7998
  42
0
  0
SEQEND
  0
POLYLINE
  8
Board_Outline
  6
CONTINUOUS
  66
1
  70
0
  40
0.14
  41
0.14
  0
VERTEX
  8
Board_Outline
  10
48.2494
  20
35.8
  42
0
  0
VERTEX
  8
Board_Outline
  10
47.2497
  20
35.8
  42
0
  0
SEQEND
  0
POLYLINE
  8
Board_Outline
  6
CONTINUOUS
  66
1
  70
0
  40
0.14
  41
0.14
  0
VERTEX
  8
Board_Outline
  10
3.25
  20
4.75
  42
0
  0
VERTEX
  8
Board_Outline
  10
2.5137
  20
4.8107
  42
0
  0
VERTEX
  8
Board_Outline
  10
1.8105
  20
5.0373
  42
0
  0
VERTEX
  8
Board_Outline
  10
1.1772
  20
5.4178
  42
0
  0
VERTEX
  8
Board_Outline
  10
0.647
  20
5.9323
  42
0
  0
VERTEX
  8
Board_Outline
  10
0.2476
  20
6.5539
  42
0
  0
VERTEX
  8
Board_Outline
  10
0.0
  20
7.25
  42
0
  0
VERTEX
  8
Board_Outline
  10
0.0
  20
34.5
  42
0
  0
VERTEX
  8
Board_Outline
  10
0.0177
  20
34.6422
  42
0
  0
VERTEX
  8
Board_Outline
  10
0.0661
  20
34.7772
  42
0
  0
VERTEX
  8
Board_Outline
  10
0.1428
  20
34.8983
  42
0
  0
VERTEX
  8
Board_Outline
  10
0.2441
  20
34.9997
  42
0
  0
VERTEX
  8
Board_Outline
  10
0.3651
  20
35.0765
  42
0
  0
VERTEX
  8
Board_Outline
  10
0.5
  20
35.125
  42
0
  0
VERTEX
  8
Board_Outline
  10
4.25
  20
35.125
  42
0
  0
VERTEX
  8
Board_Outline
  10
4.4785
  20
35.1504
  42
0
  0
VERTEX
  8
Board_Outline
  10
4.692
  20
35.2358
  42
0
  0
VERTEX
  8
Board_Outline
  10
4.875
  20
35.375
  42
0
  0
VERTEX
  8
Board_Outline
  10
5.0142
  20
35.558
  42
0
  0
VERTEX
  8
Board_Outline
  10
5.0996
  20
35.7714
  42
0
  0
VERTEX
  8
Board_Outline
  10
5.125
  20
36.0
  42
0
  0
VERTEX
  8
Board_Outline
  10
5.125
  20
47.25
  42
0
  0
VERTEX
  8
Board_Outline
  10
5.1782
  20
47.4527
  42
0
  0
VERTEX
  8
Board_Outline
  10
5.2785
  20
47.6367
  42
0
  0
VERTEX
  8
Board_Outline
  10
5.4199
  20
47.7913
  42
0
  0
VERTEX
  8
Board_Outline
  10
5.5944
  20
47.9075
  42
0
  0
VERTEX
  8
Board_Outline
  10
5.7916
  20
47.9784
  42
0
  0
VERTEX
  8
Board_Outline
  10
6.0
  20
48.0
  42
0
  0
VERTEX
  8
Board_Outline
  10
43.875
  20
48.0
  42
0
  0
VERTEX
  8
Board_Outline
  10
48.625
  20
43.25
  42
0
  0
VERTEX
  8
Board_Outline
  10
57.125
  20
43.25
  42
0
  0
VERTEX
  8
Board_Outline
  10
57.2167
  20
43.2733
  42
0
  0
VERTEX
  8
Board_Outline
  10
57.3013
  20
43.3156
  42
0
  0
VERTEX
  8
Board_Outline
  10
57.375
  20
43.375
  42
0
  0
VERTEX
  8
Board_Outline
  10
57.4344
  20
43.4487
  42
0
  0
VERTEX
  8
Board_Outline
  10
57.4767
  20
43.5333
  42
0
  0
VERTEX
  8
Board_Outline
  10
57.5
  20
43.625
  42
0
  0
VERTEX
  8
Board_Outline
  10
57.5
  20
45.0
  42
0
  0
VERTEX
  8
Board_Outline
  10
60.5
  20
48.0
  42
0
  0
VERTEX
  8
Board_Outline
  10
74.5
  20
48.0
  42
0
  0
VERTEX
  8
Board_Outline
  10
74.7829
  20
47.9606
  42
0
  0
VERTEX
  8
Board_Outline
  10
75.0509
  20
47.8618
  42
0
  0
VERTEX
  8
Board_Outline
  10
75.2917
  20
47.7083
  42
0
  0
VERTEX
  8
Board_Outline
  10
75.4943
  20
47.5071
  42
0
  0
VERTEX
  8
Board_Outline
  10
75.6495
  20
47.2673
  42
0
  0
VERTEX
  8
Board_Outline
  10
75.75
  20
47.0
  42
0
  0
VERTEX
  8
Board_Outline
  10
75.75
  20
38.375
  42
0
  0
VERTEX
  8
Board_Outline
  10
78.125
  20
36.0
  42
0
  0
VERTEX
  8
Board_Outline
  10
79.5
  20
36.0
  42
0
  0
VERTEX
  8
Board_Outline
  10
79.6534
  20
35.9409
  42
0
  0
VERTEX
  8
Board_Outline
  10
79.7877
  20
35.8462
  42
0
  0
VERTEX
  8
Board_Outline
  10
79.895
  20
35.7216
  42
0
  0
VERTEX
  8
Board_Outline
  10
79.9687
  20
35.5747
  42
0
  0
VERTEX
  8
Board_Outline
  10
80.0044
  20
35.4143
  42
0
  0
VERTEX
  8
Board_Outline
  10
80.0
  20
35.25
  42
0
  0
VERTEX
  8
Board_Outline
  10
80.0
  20
7.125
  42
0
  0
VERTEX
  8
Board_Outline
  10
79.8473
  20
6.4668
  42
0
  0
VERTEX
  8
Board_Outline
  10
79.5412
  20
5.8643
  42
0
  0
VERTEX
  8
Board_Outline
  10
79.0998
  20
5.3528
  42
0
  0
VERTEX
  8
Board_Outline
  10
78.5486
  20
4.9619
  42
0
  0
VERTEX
  8
Board_Outline
  10
77.9198
  20
4.7145
  42
0
  0
VERTEX
  8
Board_Outline
  10
77.25
  20
4.625
  42
0
  0
VERTEX
  8
Board_Outline
  10
74.875
  20
4.625
  42
0
  0
VERTEX
  8
Board_Outline
  10
72.875
  20
2.25
  42
0
  0
VERTEX
  8
Board_Outline
  10
59.5
  20
2.25
  42
0
  0
VERTEX
  8
Board_Outline
  10
59.2107
  20
2.2367
  42
0
  0
VERTEX
  8
Board_Outline
  10
58.931
  20
2.3119
  42
0
  0
VERTEX
  8
Board_Outline
  10
58.6875
  20
2.4687
  42
0
  0
VERTEX
  8
Board_Outline
  10
58.5033
  20
2.6922
  42
0
  0
VERTEX
  8
Board_Outline
  10
58.3957
  20
2.9611
  42
0
  0
VERTEX
  8
Board_Outline
  10
58.375
  20
3.25
  42
0
  0
VERTEX
  8
Board_Outline
  10
58.375
  20
4.125
  42
0
  0
VERTEX
  8
Board_Outline
  10
58.3805
  20
4.208
  42
0
  0
VERTEX
  8
Board_Outline
  10
58.3644
  20
4.2896
  42
0
  0
VERTEX
  8
Board_Outline
  10
58.3277
  20
4.3643
  42
0
  0
VERTEX
  8
Board_Outline
  10
58.2729
  20
4.4269
  42
0
  0
VERTEX
  8
Board_Outline
  10
58.2038
  20
4.4731
  42
0
  0
VERTEX
  8
Board_Outline
  10
58.125
  20
4.5
  42
0
  0
VERTEX
  8
Board_Outline
  10
50.375
  20
4.5
  42
0
  0
VERTEX
  8
Board_Outline
  10
50.2132
  20
4.4787
  42
0
  0
VERTEX
  8
Board_Outline
  10
50.0625
  20
4.4163
  42
0
  0
VERTEX
  8
Board_Outline
  10
49.9331
  20
4.3169
  42
0
  0
VERTEX
  8
Board_Outline
  10
49.8337
  20
4.1875
  42
0
  0
VERTEX
  8
Board_Outline
  10
49.7713
  20
4.0367
  42
0
  0
VERTEX
  8
Board_Outline
  10
49.75
  20
3.875
  42
0
  0
VERTEX
  8
Board_Outline
  10
49.75
  20
1.5
  42
0
  0
VERTEX
  8
Board_Outline
  10
48.25
  20
0.0
  42
0
  0
VERTEX
  8
Board_Outline
  10
32.375
  20
0.0
  42
0
  0
VERTEX
  8
Board_Outline
  10
30.625
  20
1.625
  42
0
  0
VERTEX
  8
Board_Outline
  10
30.625
  20
4.125
  42
0
  0
VERTEX
  8
Board_Outline
  10
30.5939
  20
4.2361
  42
0
  0
VERTEX
  8
Board_Outline
  10
30.5351
  20
4.3354
  42
0
  0
VERTEX
  8
Board_Outline
  10
30.4527
  20
4.416
  42
0
  0
VERTEX
  8
Board_Outline
  10
30.3521
  20
4.4726
  42
0
  0
VERTEX
  8
Board_Outline
  10
30.2404
  20
4.5012
  42
0
  0
VERTEX
  8
Board_Outline
  10
30.125
  20
4.5
  42
0
  0
VERTEX
  8
Board_Outline
  10
29.375
  20
4.5
  42
0
  0
VERTEX
  8
Board_Outline
  10
29.125
  20
4.625
  42
0
  0
VERTEX
  8
Board_Outline
  10
27.5
  20
4.625
  42
0
  0
VERTEX
  8
Board_Outline
  10
25.375
  20
4.625
  42
0
  0
VERTEX
  8
Board_Outline
  10
25.125
  20
4.5
  42
0
  0
VERTEX
  8
Board_Outline
  10
22.375
  20
4.5
  42
0
  0
VERTEX
  8
Board_Outline
  10
22.2833
  20
4.4767
  42
0
  0
VERTEX
  8
Board_Outline
  10
22.1987
  20
4.4344
  42
0
  0
VERTEX
  8
Board_Outline
  10
22.125
  20
4.375
  42
0
  0
VERTEX
  8
Board_Outline
  10
22.0656
  20
4.3013
  42
0
  0
VERTEX
  8
Board_Outline
  10
22.0233
  20
4.2167
  42
0
  0
VERTEX
  8
Board_Outline
  10
22.0
  20
4.125
  42
0
  0
VERTEX
  8
Board_Outline
  10
22.0
  20
3.0
  42
0
  0
VERTEX
  8
Board_Outline
  10
21.906
  20
2.8109
  42
0
  0
VERTEX
  8
Board_Outline
  10
21.7729
  20
2.6469
  42
0
  0
VERTEX
  8
Board_Outline
  10
21.6072
  20
2.516
  42
0
  0
VERTEX
  8
Board_Outline
  10
21.4169
  20
2.4244
  42
0
  0
VERTEX
  8
Board_Outline
  10
21.2112
  20
2.3766
  42
0
  0
VERTEX
  8
Board_Outline
  10
21.0
  20
2.375
  42
0
  0
VERTEX
  8
Board_Outline
  10
7.625
  20
2.375
  42
0
  0
VERTEX
  8
Board_Outline
  10
5.625
  20
4.75
  42
0
  0
VERTEX
  8
Board_Outline
  10
3.25
  20
4.75
  42
0
  0
SEQEND
  0
ENDSEC
  0
EOF
